Chatbox

Các bạn vui lòng dùng từ ngữ lịch sự và có văn hóa,sử dụng Tiếng Việt có dấu chuẩn. Chúc các bạn vui vẻ!
02/11/2011 09:11 # 1
killerlk1
Cấp độ: 2 - Kỹ năng: 1

Kinh nghiệm: 18/20 (90%)
Kĩ năng: 4/10 (40%)
Ngày gia nhập: 23/09/2010
Bài gởi: 28
Được cảm ơn: 4
hướng dẫn giúp với


  | | | | | |
E-|-------------|--------------0-|-------------|-----0----12----|
B-|-1p0---0-1p0-|-8p7---<12>-----|---3p0-6p3-0-|-------10-------| G-|-----3-------|-----9------0---|-------------|-4p2---------11-|
D-|-------------|----------------|-------0-----|----------------|
A-|-------------|----------------|-------------|-3--------------|
E-|-------------|-0--------------|-4-----------|----------------|


                    C7--\
    |      |        |     |         |     |
E-|-8-------------|-----7---------|-------------|-----0---------|
B-|---------------|------------10-|-----8-----7-|---------------|
G-|------9------9-|---8-----------|-------------|---0-----------|
D-|---10-----10---|-------10------|---8---7-----|---------------|
A-|--------9------|----------0----|-------------|-------3p2p1h2-|
E-|---------------|-7-------------|-6-------7---|-0-------------|



    |       |       |      |         |     |       |     |
E-|---------------|--------------0-|-------------|-----0----12----|
B-|---1p0---0-1p0-|-8p7---<12>-----|---3p0-6p3-0-|-------10-------| G-|-------3-------|-----9------0---|-------------|-4p2---------11-|
D-|---------------|----------------|-------0-----|----------------|
A-|---------------|----------------|-------------|-3--------------|
E-|-0-------------|-0--------------|-4-----------|----------------|


các bạn ai hiểu được mấy chỗ mình tô màu chỉ mình với...
đây là 1 đoạn của bài natalia...
tks mọi người
 



 
Các thành viên đã Thank killerlk1 vì Bài viết có ích:
02/11/2011 13:11 # 2
hamvui31
Cấp độ: 9 - Kỹ năng: 8

Kinh nghiệm: 9/90 (10%)
Kĩ năng: 29/80 (36%)
Ngày gia nhập: 29/12/2010
Bài gởi: 369
Được cảm ơn: 309
Phản hồi: hướng dẫn giúp với


Mình cũng có chơi natalia, nhưng bản của mình khác xa với bản này. Nên mình chịu.


Lê Quang Tuấn
MOD: CLB GUITAR
Yahoo: phagiachitu_31
Mail: TJust31@yahoo.com

 
02/11/2011 17:11 # 3
oangia
Cấp độ: 4 - Kỹ năng: 2

Kinh nghiệm: 6/40 (15%)
Kĩ năng: 11/20 (55%)
Ngày gia nhập: 27/11/2010
Bài gởi: 66
Được cảm ơn: 21
Phản hồi: hướng dẫn giúp với


Bày cho nè, chỗ chữ p nghĩa là mình sẽ đánh vào nốt đằng trước chữ p rồi thả ra sao cho âm vẫn còn giữ lại ở nốt đằng sau chữ p.
Ví dụ: 1p0 mình chỉ đánh 1 lần duy nhất mà phát lên 2 âm, đầu tiên ngăn 1 vang lên mình kéo tay ra thì ngăn 0 cũng phát lên tiếng (nhớ là tay phải chỉ đánh 1 lần)



 
Các thành viên đã Thank oangia vì Bài viết có ích:
Copyright© Đại học Duy Tân 2010 - 2022